ISO-10303-21;
HEADER;
FILE_DESCRIPTION (( 'STEP AP214' ),
    '1' );
FILE_NAME ('am-3947a-100 375H x 100IN Spacer.STEP',
    '2025-02-06T16:33:20',
    ( '' ),
    ( '' ),
    'SwSTEP 2.0',
    'SolidWorks 2024',
    '' );
FILE_SCHEMA (( 'AUTOMOTIVE_DESIGN' ));
ENDSEC;

DATA;
#1 = LENGTH_MEASURE_WITH_UNIT ( LENGTH_MEASURE( 0.02539999999999999897 ), #218 );
#2 = VERTEX_POINT ( 'NONE', #17 ) ;
#3 = CARTESIAN_POINT ( 'NONE',  ( 0.1085418506076495232, 0.1880000000000000282, 0.1000000000000000056 ) ) ;
#4 = VERTEX_POINT ( 'NONE', #223 ) ;
#5 = PLANE ( 'NONE',  #279 ) ;
#6 = ORIENTED_EDGE ( 'NONE', *, *, #253, .F. ) ;
#7 = ADVANCED_FACE ( 'NONE', ( #251 ), #322, .T. ) ;
#8 = CARTESIAN_POINT ( 'NONE',  ( 0.1085418506076496203, -0.1879999999999999727, 0.000000000000000000 ) ) ;
#9 = EDGE_LOOP ( 'NONE', ( #315, #214, #295, #216 ) ) ;
#10 = DIRECTION ( 'NONE',  ( 0.5000000000000004441, -0.8660254037844383745, 0.000000000000000000 ) ) ;
#11 = EDGE_LOOP ( 'NONE', ( #242, #182, #320, #83, #37, #289 ) ) ;
#12 = PRODUCT_RELATED_PRODUCT_CATEGORY ( 'part', '', ( #174 ) ) ;
#13 = CARTESIAN_POINT ( 'NONE',  ( 0.000000000000000000, 0.000000000000000000, 0.1000000000000000056 ) ) ;
#14 = VECTOR ( 'NONE', #170, 39.37007874015748143 ) ;
#15 = CARTESIAN_POINT ( 'NONE',  ( 0.2170837012152992962, -8.629126648930641522E-21, 0.1000000000000000056 ) ) ;
#16 = ORIENTED_EDGE ( 'NONE', *, *, #64, .F. ) ;
#17 = CARTESIAN_POINT ( 'NONE',  ( 0.1085418506076495232, 0.1880000000000000282, 0.000000000000000000 ) ) ;
#18 = ADVANCED_FACE ( 'NONE', ( #245, #277 ), #138, .T. ) ;
#19 = DIRECTION ( 'NONE',  ( -1.000000000000000000, 0.000000000000000000, 0.000000000000000000 ) ) ;
#20 = VECTOR ( 'NONE', #230, 39.37007874015748143 ) ;
#21 = EDGE_CURVE ( 'NONE', #151, #53, #198, .T. ) ;
#22 = CARTESIAN_POINT ( 'NONE',  ( 0.3125000000000000000, 3.827021247335478926E-17, 0.1000000000000000056 ) ) ;
#23 = DIRECTION ( 'NONE',  ( -1.000000000000000000, 0.000000000000000000, 0.000000000000000000 ) ) ;
#24 = AXIS2_PLACEMENT_3D ( 'NONE', #202, #118, #95 ) ;
#25 = CARTESIAN_POINT ( 'NONE',  ( 0.000000000000000000, 0.000000000000000000, 0.000000000000000000 ) ) ;
#26 = PRODUCT_DEFINITION_CONTEXT ( 'detailed design', #193, 'design' ) ;
#27 = ORIENTED_EDGE ( 'NONE', *, *, #142, .T. ) ;
#28 = VECTOR ( 'NONE', #47, 39.37007874015748143 ) ;
#29 = CARTESIAN_POINT ( 'NONE',  ( -0.1085418506076496065, 0.1880000000000000282, 0.1000000000000000056 ) ) ;
#30 = ORIENTED_EDGE ( 'NONE', *, *, #260, .F. ) ;
#31 = CARTESIAN_POINT ( 'NONE',  ( -0.1085418506076496065, -0.1879999999999999727, 0.000000000000000000 ) ) ;
#32 = CARTESIAN_POINT ( 'NONE',  ( -0.2170837012152992962, -6.822844948385385685E-21, 0.000000000000000000 ) ) ;
#33 = EDGE_LOOP ( 'NONE', ( #40, #27 ) ) ;
#34 = VECTOR ( 'NONE', #23, 39.37007874015748143 ) ;
#35 = AXIS2_PLACEMENT_3D ( 'NONE', #232, #124, #284 ) ;
#36 = CARTESIAN_POINT ( 'NONE',  ( -0.2170837012152992962, -6.822844948385385685E-21, 0.1000000000000000056 ) ) ;
#37 = ORIENTED_EDGE ( 'NONE', *, *, #166, .F. ) ;
#38 = EDGE_CURVE ( 'NONE', #2, #76, #86, .T. ) ;
#39 = APPLICATION_PROTOCOL_DEFINITION ( 'draft international standard', 'automotive_design', 1998, #173 ) ;
#40 = ORIENTED_EDGE ( 'NONE', *, *, #133, .T. ) ;
#41 = LINE ( 'NONE', #15, #225 ) ;
#42 = DIRECTION ( 'NONE',  ( -0.000000000000000000, -0.000000000000000000, -1.000000000000000000 ) ) ;
#43 = DIRECTION ( 'NONE',  ( 0.000000000000000000, 0.000000000000000000, 1.000000000000000000 ) ) ;
#44 = DIRECTION ( 'NONE',  ( 1.000000000000000000, 0.000000000000000000, 0.000000000000000000 ) ) ;
#45 = CARTESIAN_POINT ( 'NONE',  ( 0.1085418506076496203, -0.1879999999999999727, 0.1000000000000000056 ) ) ;
#46 = DIRECTION ( 'NONE',  ( -0.5000000000000004441, 0.8660254037844383745, 0.000000000000000000 ) ) ;
#47 = DIRECTION ( 'NONE',  ( -0.000000000000000000, -0.000000000000000000, -1.000000000000000000 ) ) ;
#48 = DIRECTION ( 'NONE',  ( 1.000000000000000000, 0.000000000000000000, 0.000000000000000000 ) ) ;
#49 = AXIS2_PLACEMENT_3D ( 'NONE', #149, #236, #52 ) ;
#50 = LINE ( 'NONE', #262, #213 ) ;
#51 = EDGE_LOOP ( 'NONE', ( #267, #73, #160, #240 ) ) ;
#52 = DIRECTION ( 'NONE',  ( 0.5000000000000001110, 0.8660254037844385966, 0.000000000000000000 ) ) ;
#53 = VERTEX_POINT ( 'NONE', #220 ) ;
#54 = FACE_OUTER_BOUND ( 'NONE', #157, .T. ) ;
#55 = VERTEX_POINT ( 'NONE', #58 ) ;
#56 = ORIENTED_EDGE ( 'NONE', *, *, #217, .T. ) ;
#57 = DIRECTION ( 'NONE',  ( 0.000000000000000000, 0.000000000000000000, 1.000000000000000000 ) ) ;
#58 = CARTESIAN_POINT ( 'NONE',  ( 0.1085418506076496203, -0.1879999999999999727, 0.1000000000000000056 ) ) ;
#59 = ADVANCED_FACE ( 'NONE', ( #162 ), #194, .T. ) ;
#60 = VECTOR ( 'NONE', #288, 39.37007874015748143 ) ;
#61 = ORIENTED_EDGE ( 'NONE', *, *, #187, .T. ) ;
#62 = FILL_AREA_STYLE ('',( #299 ) ) ;
#63 = PRESENTATION_STYLE_ASSIGNMENT (( #87 ) ) ;
#64 = EDGE_CURVE ( 'NONE', #186, #237, #137, .T. ) ;
#65 = CARTESIAN_POINT ( 'NONE',  ( -0.1085418506076496065, 0.1880000000000000282, 0.1000000000000000056 ) ) ;
#66 = STYLED_ITEM ( 'NONE', ( #63 ), #91 ) ;
#67 = DIRECTION ( 'NONE',  ( 0.000000000000000000, 1.000000000000000000, 0.000000000000000000 ) ) ;
#68 = CARTESIAN_POINT ( 'NONE',  ( -0.1085418506076496065, -0.1879999999999999727, 0.1000000000000000056 ) ) ;
#69 = DIMENSIONAL_EXPONENTS ( 1.000000000000000000, 0.000000000000000000, 0.000000000000000000, 0.000000000000000000, 0.000000000000000000, 0.000000000000000000, 0.000000000000000000 ) ;
#70 = LENGTH_MEASURE_WITH_UNIT ( LENGTH_MEASURE( 0.02539999999999999897 ), #136 );
#71 = AXIS2_PLACEMENT_3D ( 'NONE', #84, #112, #250 ) ;
#72 =( NAMED_UNIT ( * ) PLANE_ANGLE_UNIT ( ) SI_UNIT ( $, .RADIAN. ) );
#73 = ORIENTED_EDGE ( 'NONE', *, *, #64, .T. ) ;
#74 = EDGE_CURVE ( 'NONE', #4, #192, #41, .T. ) ;
#75 = LINE ( 'NONE', #29, #275 ) ;
#76 = VERTEX_POINT ( 'NONE', #321 ) ;
#77 = PLANE ( 'NONE',  #35 ) ;
#78 = VERTEX_POINT ( 'NONE', #300 ) ;
#79 = LINE ( 'NONE', #101, #60 ) ;
#80 = ORIENTED_EDGE ( 'NONE', *, *, #147, .T. ) ;
#81 = CIRCLE ( 'NONE', #164, 0.3125000000000000000 ) ;
#82 = EDGE_LOOP ( 'NONE', ( #30, #111, #274, #312 ) ) ;
#83 = ORIENTED_EDGE ( 'NONE', *, *, #269, .F. ) ;
#84 = CARTESIAN_POINT ( 'NONE',  ( -0.2170837012152992962, -6.822844948385385685E-21, 0.1000000000000000056 ) ) ;
#85 = VECTOR ( 'NONE', #48, 39.37007874015748143 ) ;
#86 = LINE ( 'NONE', #296, #248 ) ;
#87 = SURFACE_STYLE_USAGE ( .BOTH. , #297 ) ;
#88 = LINE ( 'NONE', #206, #28 ) ;
#89 = DIRECTION ( 'NONE',  ( -0.000000000000000000, -0.000000000000000000, -1.000000000000000000 ) ) ;
#90 = VECTOR ( 'NONE', #290, 39.37007874015748143 ) ;
#91 = MANIFOLD_SOLID_BREP ( 'Boss-Extrude1', #329 ) ;
#92 = LINE ( 'NONE', #45, #189 ) ;
#93 = EDGE_CURVE ( 'NONE', #99, #78, #141, .T. ) ;
#94 = LINE ( 'NONE', #115, #20 ) ;
#95 = DIRECTION ( 'NONE',  ( 1.000000000000000000, 0.000000000000000000, 0.000000000000000000 ) ) ;
#96 = AXIS2_PLACEMENT_3D ( 'NONE', #203, #89, #258 ) ;
#97 = LINE ( 'NONE', #32, #294 ) ;
#98 = EDGE_CURVE ( 'NONE', #192, #153, #197, .T. ) ;
#99 = VERTEX_POINT ( 'NONE', #254 ) ;
#100 = CARTESIAN_POINT ( 'NONE',  ( 0.000000000000000000, 0.000000000000000000, 0.000000000000000000 ) ) ;
#101 = CARTESIAN_POINT ( 'NONE',  ( 0.2170837012152992962, -8.629126648930641522E-21, 0.1000000000000000056 ) ) ;
#102 = VERTEX_POINT ( 'NONE', #227 ) ;
#103 = AXIS2_PLACEMENT_3D ( 'NONE', #271, #42, #19 ) ;
#104 = PLANE ( 'NONE',  #49 ) ;
#105 = ORIENTED_EDGE ( 'NONE', *, *, #139, .F. ) ;
#106 = EDGE_CURVE ( 'NONE', #151, #55, #304, .T. ) ;
#107 = ORIENTED_EDGE ( 'NONE', *, *, #74, .T. ) ;
#108 = ORIENTED_EDGE ( 'NONE', *, *, #109, .T. ) ;
#109 = EDGE_CURVE ( 'NONE', #55, #293, #278, .T. ) ;
#110 = DIRECTION ( 'NONE',  ( -0.5000000000000004441, 0.8660254037844383745, 0.000000000000000000 ) ) ;
#111 = ORIENTED_EDGE ( 'NONE', *, *, #109, .F. ) ;
#112 = DIRECTION ( 'NONE',  ( 0.8660254037844385966, 0.5000000000000001110, -0.000000000000000000 ) ) ;
#113 = VERTEX_POINT ( 'NONE', #204 ) ;
#114 = CARTESIAN_POINT ( 'NONE',  ( 0.1085418506076495232, 0.1880000000000000282, 0.1000000000000000056 ) ) ;
#115 = CARTESIAN_POINT ( 'NONE',  ( -0.2170837012152992962, -6.822844948385385685E-21, 0.1000000000000000056 ) ) ;
#116 = ADVANCED_FACE ( 'NONE', ( #199 ), #146, .T. ) ;
#117 = DIRECTION ( 'NONE',  ( 1.000000000000000000, 0.000000000000000000, 0.000000000000000000 ) ) ;
#118 = DIRECTION ( 'NONE',  ( 0.000000000000000000, 0.000000000000000000, 1.000000000000000000 ) ) ;
#119 = EDGE_CURVE ( 'NONE', #55, #4, #92, .T. ) ;
#120 = DIRECTION ( 'NONE',  ( 1.000000000000000000, 0.000000000000000000, -0.000000000000000000 ) ) ;
#121 = AXIS2_PLACEMENT_3D ( 'NONE', #100, #156, #316 ) ;
#122 = DIRECTION ( 'NONE',  ( 0.5000000000000001110, -0.8660254037844385966, 0.000000000000000000 ) ) ;
#123 = ORIENTED_EDGE ( 'NONE', *, *, #211, .F. ) ;
#124 = DIRECTION ( 'NONE',  ( -0.8660254037844385966, 0.5000000000000001110, 0.000000000000000000 ) ) ;
#125 = ORIENTED_EDGE ( 'NONE', *, *, #269, .T. ) ;
#126 = FACE_OUTER_BOUND ( 'NONE', #82, .T. ) ;
#127 = ORIENTED_EDGE ( 'NONE', *, *, #171, .F. ) ;
#128 = ADVANCED_FACE ( 'NONE', ( #282 ), #281, .T. ) ;
#129 = AXIS2_PLACEMENT_3D ( 'NONE', #270, #57, #244 ) ;
#130 = PLANE ( 'NONE',  #319 ) ;
#131 = ORIENTED_EDGE ( 'NONE', *, *, #21, .T. ) ;
#132 = EDGE_LOOP ( 'NONE', ( #310, #155, #210, #56, #163, #226 ) ) ;
#133 = EDGE_CURVE ( 'NONE', #99, #186, #81, .T. ) ;
#134 = DIRECTION ( 'NONE',  ( -1.000000000000000000, 0.000000000000000000, 0.000000000000000000 ) ) ;
#135 = CIRCLE ( 'NONE', #121, 0.3125000000000000000 ) ;
#136 =( LENGTH_UNIT ( ) NAMED_UNIT ( * ) SI_UNIT ( $, .METRE. ) );
#137 = LINE ( 'NONE', #272, #195 ) ;
#138 = PLANE ( 'NONE',  #228 ) ;
#139 = EDGE_CURVE ( 'NONE', #317, #2, #175, .T. ) ;
#140 = AXIS2_PLACEMENT_3D ( 'NONE', #330, #67, #327 ) ;
#141 = LINE ( 'NONE', #307, #169 ) ;
#142 = EDGE_CURVE ( 'NONE', #186, #99, #150, .T. ) ;
#143 = DIRECTION ( 'NONE',  ( 0.5000000000000001110, 0.8660254037844385966, 0.000000000000000000 ) ) ;
#144 = CARTESIAN_POINT ( 'NONE',  ( -0.1085418506076496065, -0.1879999999999999727, 0.1000000000000000056 ) ) ;
#145 =( GEOMETRIC_REPRESENTATION_CONTEXT ( 3 ) GLOBAL_UNCERTAINTY_ASSIGNED_CONTEXT ( ( #190 ) ) GLOBAL_UNIT_ASSIGNED_CONTEXT ( ( #259, #72, #161 ) ) REPRESENTATION_CONTEXT ( 'NONE', 'WORKASPACE' ) );
#146 = PLANE ( 'NONE',  #140 ) ;
#147 = EDGE_CURVE ( 'NONE', #192, #2, #88, .T. ) ;
#148 = DIMENSIONAL_EXPONENTS ( 1.000000000000000000, 0.000000000000000000, 0.000000000000000000, 0.000000000000000000, 0.000000000000000000, 0.000000000000000000, 0.000000000000000000 ) ;
#149 = CARTESIAN_POINT ( 'NONE',  ( -0.1085418506076496065, 0.1880000000000000282, 0.1000000000000000056 ) ) ;
#150 = CIRCLE ( 'NONE', #24, 0.3125000000000000000 ) ;
#151 = VERTEX_POINT ( 'NONE', #144 ) ;
#152 = PLANE ( 'NONE',  #287 ) ;
#153 = VERTEX_POINT ( 'NONE', #302 ) ;
#154 = DIRECTION ( 'NONE',  ( 0.000000000000000000, -0.000000000000000000, -1.000000000000000000 ) ) ;
#155 = ORIENTED_EDGE ( 'NONE', *, *, #139, .T. ) ;
#156 = DIRECTION ( 'NONE',  ( 0.000000000000000000, 0.000000000000000000, 1.000000000000000000 ) ) ;
#157 = EDGE_LOOP ( 'NONE', ( #165, #127 ) ) ;
#158 = MECHANICAL_DESIGN_GEOMETRIC_PRESENTATION_REPRESENTATION (  '', ( #66 ), #261 ) ;
#159 = PRODUCT_CONTEXT ( 'NONE', #173, 'mechanical' ) ;
#160 = ORIENTED_EDGE ( 'NONE', *, *, #171, .T. ) ;
#161 =( NAMED_UNIT ( * ) SI_UNIT ( $, .STERADIAN. ) SOLID_ANGLE_UNIT ( ) );
#162 = FACE_OUTER_BOUND ( 'NONE', #51, .T. ) ;
#163 = ORIENTED_EDGE ( 'NONE', *, *, #249, .T. ) ;
#164 = AXIS2_PLACEMENT_3D ( 'NONE', #256, #306, #44 ) ;
#165 = ORIENTED_EDGE ( 'NONE', *, *, #305, .F. ) ;
#166 = EDGE_CURVE ( 'NONE', #153, #113, #309, .T. ) ;
#167 = EDGE_LOOP ( 'NONE', ( #6, #184, #222, #108 ) ) ;
#168 =( NAMED_UNIT ( * ) PLANE_ANGLE_UNIT ( ) SI_UNIT ( $, .RADIAN. ) );
#169 = VECTOR ( 'NONE', #328, 39.37007874015748143 ) ;
#170 = DIRECTION ( 'NONE',  ( -0.5000000000000001110, -0.8660254037844385966, 0.000000000000000000 ) ) ;
#171 = EDGE_CURVE ( 'NONE', #237, #78, #201, .T. ) ;
#172 =( CONVERSION_BASED_UNIT ( 'INCH', #70 ) LENGTH_UNIT ( ) NAMED_UNIT ( #148 ) );
#173 = APPLICATION_CONTEXT ( 'automotive_design' ) ;
#174 = PRODUCT ( 'am-3947a-100 375H x 100IN Spacer', 'am-3947a-100 375H x 100IN Spacer', '', ( #159 ) ) ;
#175 = LINE ( 'NONE', #255, #313 ) ;
#176 = VECTOR ( 'NONE', #238, 39.37007874015748143 ) ;
#177 = FACE_OUTER_BOUND ( 'NONE', #9, .T. ) ;
#178 = ADVANCED_BREP_SHAPE_REPRESENTATION ( 'am-3947a-100 375H x 100IN Spacer', ( #91, #129 ), #145 ) ;
#179 = LINE ( 'NONE', #31, #221 ) ;
#180 = EDGE_LOOP ( 'NONE', ( #235, #123, #298, #61 ) ) ;
#181 = DIRECTION ( 'NONE',  ( -0.5000000000000001110, -0.8660254037844385966, 0.000000000000000000 ) ) ;
#182 = ORIENTED_EDGE ( 'NONE', *, *, #119, .F. ) ;
#183 = CARTESIAN_POINT ( 'NONE',  ( 0.1085418506076496203, -0.1879999999999999727, 0.000000000000000000 ) ) ;
#184 = ORIENTED_EDGE ( 'NONE', *, *, #21, .F. ) ;
#185 = FACE_OUTER_BOUND ( 'NONE', #188, .T. ) ;
#186 = VERTEX_POINT ( 'NONE', #22 ) ;
#187 = EDGE_CURVE ( 'NONE', #113, #102, #94, .T. ) ;
#188 = EDGE_LOOP ( 'NONE', ( #105, #219, #107, #80 ) ) ;
#189 = VECTOR ( 'NONE', #143, 39.37007874015748143 ) ;
#190 = UNCERTAINTY_MEASURE_WITH_UNIT (LENGTH_MEASURE( 1.000000000000000082E-05 ), #259, 'distance_accuracy_value', 'NONE');
#191 = CARTESIAN_POINT ( 'NONE',  ( -0.1085418506076496065, -0.1879999999999999727, 0.1000000000000000056 ) ) ;
#192 = VERTEX_POINT ( 'NONE', #331 ) ;
#193 = APPLICATION_CONTEXT ( 'automotive_design' ) ;
#194 = CYLINDRICAL_SURFACE ( 'NONE', #103, 0.3125000000000000000 ) ;
#195 = VECTOR ( 'NONE', #247, 39.37007874015748143 ) ;
#196 = EDGE_CURVE ( 'NONE', #4, #317, #79, .T. ) ;
#197 = LINE ( 'NONE', #114, #34 ) ;
#198 = LINE ( 'NONE', #191, #303 ) ;
#199 = FACE_OUTER_BOUND ( 'NONE', #167, .T. ) ;
#200 = ADVANCED_FACE ( 'NONE', ( #212 ), #104, .T. ) ;
#201 = CIRCLE ( 'NONE', #324, 0.3125000000000000000 ) ;
#202 = CARTESIAN_POINT ( 'NONE',  ( 0.000000000000000000, 0.000000000000000000, 0.1000000000000000056 ) ) ;
#203 = CARTESIAN_POINT ( 'NONE',  ( 0.000000000000000000, 0.000000000000000000, 0.1000000000000000056 ) ) ;
#204 = CARTESIAN_POINT ( 'NONE',  ( -0.2170837012152992962, -6.822844948385385685E-21, 0.1000000000000000056 ) ) ;
#205 = ADVANCED_FACE ( 'NONE', ( #177 ), #5, .T. ) ;
#206 = CARTESIAN_POINT ( 'NONE',  ( 0.1085418506076495232, 0.1880000000000000282, 0.1000000000000000056 ) ) ;
#207 = CARTESIAN_POINT ( 'NONE',  ( 0.2170837012152992962, -8.629126648930641522E-21, 0.000000000000000000 ) ) ;
#208 = ORIENTED_EDGE ( 'NONE', *, *, #93, .T. ) ;
#209 = LINE ( 'NONE', #36, #176 ) ;
#210 = ORIENTED_EDGE ( 'NONE', *, *, #38, .T. ) ;
#211 = EDGE_CURVE ( 'NONE', #153, #76, #75, .T. ) ;
#212 = FACE_OUTER_BOUND ( 'NONE', #180, .T. ) ;
#213 = VECTOR ( 'NONE', #181, 39.37007874015748143 ) ;
#214 = ORIENTED_EDGE ( 'NONE', *, *, #147, .F. ) ;
#215 = DIRECTION ( 'NONE',  ( -0.000000000000000000, -0.000000000000000000, -1.000000000000000000 ) ) ;
#216 = ORIENTED_EDGE ( 'NONE', *, *, #211, .T. ) ;
#217 = EDGE_CURVE ( 'NONE', #76, #102, #50, .T. ) ;
#218 =( LENGTH_UNIT ( ) NAMED_UNIT ( * ) SI_UNIT ( $, .METRE. ) );
#219 = ORIENTED_EDGE ( 'NONE', *, *, #196, .F. ) ;
#220 = CARTESIAN_POINT ( 'NONE',  ( -0.1085418506076496065, -0.1879999999999999727, 0.000000000000000000 ) ) ;
#221 = VECTOR ( 'NONE', #264, 39.37007874015748143 ) ;
#222 = ORIENTED_EDGE ( 'NONE', *, *, #106, .T. ) ;
#223 = CARTESIAN_POINT ( 'NONE',  ( 0.2170837012152992962, -8.629126648930641522E-21, 0.1000000000000000056 ) ) ;
#224 = DIRECTION ( 'NONE',  ( -0.000000000000000000, -0.000000000000000000, -1.000000000000000000 ) ) ;
#225 = VECTOR ( 'NONE', #110, 39.37007874015748143 ) ;
#226 = ORIENTED_EDGE ( 'NONE', *, *, #253, .T. ) ;
#227 = CARTESIAN_POINT ( 'NONE',  ( -0.2170837012152992962, -6.822844948385385685E-21, 0.000000000000000000 ) ) ;
#228 = AXIS2_PLACEMENT_3D ( 'NONE', #13, #43, #276 ) ;
#229 = DIRECTION ( 'NONE',  ( -0.000000000000000000, -0.000000000000000000, -1.000000000000000000 ) ) ;
#230 = DIRECTION ( 'NONE',  ( -0.000000000000000000, -0.000000000000000000, -1.000000000000000000 ) ) ;
#231 = PRESENTATION_LAYER_ASSIGNMENT (  '', '', ( #66 ) ) ;
#232 = CARTESIAN_POINT ( 'NONE',  ( 0.1085418506076496203, -0.1879999999999999727, 0.1000000000000000056 ) ) ;
#233 = ORIENTED_EDGE ( 'NONE', *, *, #305, .T. ) ;
#234 = CARTESIAN_POINT ( 'NONE',  ( 0.2170837012152992962, -8.629126648930641522E-21, 0.1000000000000000056 ) ) ;
#235 = ORIENTED_EDGE ( 'NONE', *, *, #217, .F. ) ;
#236 = DIRECTION ( 'NONE',  ( 0.8660254037844385966, -0.5000000000000001110, 0.000000000000000000 ) ) ;
#237 = VERTEX_POINT ( 'NONE', #268 ) ;
#238 = DIRECTION ( 'NONE',  ( 0.5000000000000001110, -0.8660254037844385966, 0.000000000000000000 ) ) ;
#239 = COLOUR_RGB ( '',0.7921568627450980005, 0.8196078431372548767, 0.9333333333333333481 ) ;
#240 = ORIENTED_EDGE ( 'NONE', *, *, #93, .F. ) ;
#241 = DIRECTION ( 'NONE',  ( -0.8660254037844383745, -0.5000000000000004441, 0.000000000000000000 ) ) ;
#242 = ORIENTED_EDGE ( 'NONE', *, *, #74, .F. ) ;
#243 = ADVANCED_FACE ( 'NONE', ( #54, #266 ), #152, .F. ) ;
#244 = DIRECTION ( 'NONE',  ( 1.000000000000000000, 0.000000000000000000, 0.000000000000000000 ) ) ;
#245 = FACE_OUTER_BOUND ( 'NONE', #33, .T. ) ;
#246 = APPLICATION_PROTOCOL_DEFINITION ( 'draft international standard', 'automotive_design', 1998, #193 ) ;
#247 = DIRECTION ( 'NONE',  ( -0.000000000000000000, -0.000000000000000000, -1.000000000000000000 ) ) ;
#248 = VECTOR ( 'NONE', #134, 39.37007874015748143 ) ;
#249 = EDGE_CURVE ( 'NONE', #102, #53, #97, .T. ) ;
#250 = DIRECTION ( 'NONE',  ( -0.5000000000000001110, 0.8660254037844385966, 0.000000000000000000 ) ) ;
#251 = FACE_OUTER_BOUND ( 'NONE', #323, .T. ) ;
#252 = VECTOR ( 'NONE', #229, 39.37007874015748143 ) ;
#253 = EDGE_CURVE ( 'NONE', #53, #293, #179, .T. ) ;
#254 = CARTESIAN_POINT ( 'NONE',  ( -0.3125000000000000000, 0.000000000000000000, 0.1000000000000000056 ) ) ;
#255 = CARTESIAN_POINT ( 'NONE',  ( 0.2170837012152992962, -8.629126648930641522E-21, 0.000000000000000000 ) ) ;
#256 = CARTESIAN_POINT ( 'NONE',  ( 0.000000000000000000, 0.000000000000000000, 0.1000000000000000056 ) ) ;
#257 = ADVANCED_FACE ( 'NONE', ( #126 ), #77, .T. ) ;
#258 = DIRECTION ( 'NONE',  ( -1.000000000000000000, 0.000000000000000000, 0.000000000000000000 ) ) ;
#259 =( CONVERSION_BASED_UNIT ( 'INCH', #1 ) LENGTH_UNIT ( ) NAMED_UNIT ( #69 ) );
#260 = EDGE_CURVE ( 'NONE', #293, #317, #285, .T. ) ;
#261 =( GEOMETRIC_REPRESENTATION_CONTEXT ( 3 ) GLOBAL_UNCERTAINTY_ASSIGNED_CONTEXT ( ( #301 ) ) GLOBAL_UNIT_ASSIGNED_CONTEXT ( ( #172, #168, #283 ) ) REPRESENTATION_CONTEXT ( 'NONE', 'WORKASPACE' ) );
#262 = CARTESIAN_POINT ( 'NONE',  ( -0.1085418506076496065, 0.1880000000000000282, 0.000000000000000000 ) ) ;
#263 = ORIENTED_EDGE ( 'NONE', *, *, #133, .F. ) ;
#264 = DIRECTION ( 'NONE',  ( 1.000000000000000000, 0.000000000000000000, 0.000000000000000000 ) ) ;
#265 = ORIENTED_EDGE ( 'NONE', *, *, #249, .F. ) ;
#266 = FACE_BOUND ( 'NONE', #132, .T. ) ;
#267 = ORIENTED_EDGE ( 'NONE', *, *, #142, .F. ) ;
#268 = CARTESIAN_POINT ( 'NONE',  ( 0.3125000000000000000, 3.827021247335478926E-17, 0.000000000000000000 ) ) ;
#269 = EDGE_CURVE ( 'NONE', #113, #151, #209, .T. ) ;
#270 = CARTESIAN_POINT ( 'NONE',  ( 0.000000000000000000, 0.000000000000000000, 0.000000000000000000 ) ) ;
#271 = CARTESIAN_POINT ( 'NONE',  ( 0.000000000000000000, 0.000000000000000000, 0.1000000000000000056 ) ) ;
#272 = CARTESIAN_POINT ( 'NONE',  ( 0.3125000000000000000, 3.827021247335478926E-17, 0.1000000000000000056 ) ) ;
#273 = PRODUCT_DEFINITION ( 'UNKNOWN', '', #308, #26 ) ;
#274 = ORIENTED_EDGE ( 'NONE', *, *, #119, .T. ) ;
#275 = VECTOR ( 'NONE', #215, 39.37007874015748143 ) ;
#276 = DIRECTION ( 'NONE',  ( 1.000000000000000000, 0.000000000000000000, -0.000000000000000000 ) ) ;
#277 = FACE_BOUND ( 'NONE', #11, .T. ) ;
#278 = LINE ( 'NONE', #333, #252 ) ;
#279 = AXIS2_PLACEMENT_3D ( 'NONE', #3, #292, #154 ) ;
#280 = DIRECTION ( 'NONE',  ( 0.000000000000000000, 0.000000000000000000, 1.000000000000000000 ) ) ;
#281 = CYLINDRICAL_SURFACE ( 'NONE', #96, 0.3125000000000000000 ) ;
#282 = FACE_OUTER_BOUND ( 'NONE', #286, .T. ) ;
#283 =( NAMED_UNIT ( * ) SI_UNIT ( $, .STERADIAN. ) SOLID_ANGLE_UNIT ( ) );
#284 = DIRECTION ( 'NONE',  ( -0.5000000000000001110, -0.8660254037844385966, 0.000000000000000000 ) ) ;
#285 = LINE ( 'NONE', #183, #90 ) ;
#286 = EDGE_LOOP ( 'NONE', ( #16, #263, #208, #233 ) ) ;
#287 = AXIS2_PLACEMENT_3D ( 'NONE', #311, #314, #120 ) ;
#288 = DIRECTION ( 'NONE',  ( -0.000000000000000000, -0.000000000000000000, -1.000000000000000000 ) ) ;
#289 = ORIENTED_EDGE ( 'NONE', *, *, #98, .F. ) ;
#290 = DIRECTION ( 'NONE',  ( 0.5000000000000001110, 0.8660254037844385966, 0.000000000000000000 ) ) ;
#291 = ORIENTED_EDGE ( 'NONE', *, *, #187, .F. ) ;
#292 = DIRECTION ( 'NONE',  ( 0.000000000000000000, -1.000000000000000000, 0.000000000000000000 ) ) ;
#293 = VERTEX_POINT ( 'NONE', #8 ) ;
#294 = VECTOR ( 'NONE', #122, 39.37007874015748143 ) ;
#295 = ORIENTED_EDGE ( 'NONE', *, *, #98, .T. ) ;
#296 = CARTESIAN_POINT ( 'NONE',  ( 0.1085418506076495232, 0.1880000000000000282, 0.000000000000000000 ) ) ;
#297 = SURFACE_SIDE_STYLE ('',( #326 ) ) ;
#298 = ORIENTED_EDGE ( 'NONE', *, *, #166, .T. ) ;
#299 = FILL_AREA_STYLE_COLOUR ( '', #239 ) ;
#300 = CARTESIAN_POINT ( 'NONE',  ( -0.3125000000000000000, 0.000000000000000000, 0.000000000000000000 ) ) ;
#301 = UNCERTAINTY_MEASURE_WITH_UNIT (LENGTH_MEASURE( 1.000000000000000082E-05 ), #172, 'distance_accuracy_value', 'NONE');
#302 = CARTESIAN_POINT ( 'NONE',  ( -0.1085418506076496065, 0.1880000000000000282, 0.1000000000000000056 ) ) ;
#303 = VECTOR ( 'NONE', #224, 39.37007874015748143 ) ;
#304 = LINE ( 'NONE', #68, #85 ) ;
#305 = EDGE_CURVE ( 'NONE', #78, #237, #135, .T. ) ;
#306 = DIRECTION ( 'NONE',  ( 0.000000000000000000, 0.000000000000000000, 1.000000000000000000 ) ) ;
#307 = CARTESIAN_POINT ( 'NONE',  ( -0.3125000000000000000, 0.000000000000000000, 0.1000000000000000056 ) ) ;
#308 = PRODUCT_DEFINITION_FORMATION_WITH_SPECIFIED_SOURCE ( 'ANY', '', #174, .NOT_KNOWN. ) ;
#309 = LINE ( 'NONE', #65, #14 ) ;
#310 = ORIENTED_EDGE ( 'NONE', *, *, #260, .T. ) ;
#311 = CARTESIAN_POINT ( 'NONE',  ( 0.000000000000000000, 0.000000000000000000, 0.000000000000000000 ) ) ;
#312 = ORIENTED_EDGE ( 'NONE', *, *, #196, .T. ) ;
#313 = VECTOR ( 'NONE', #46, 39.37007874015748143 ) ;
#314 = DIRECTION ( 'NONE',  ( 0.000000000000000000, 0.000000000000000000, 1.000000000000000000 ) ) ;
#315 = ORIENTED_EDGE ( 'NONE', *, *, #38, .F. ) ;
#316 = DIRECTION ( 'NONE',  ( 1.000000000000000000, 0.000000000000000000, 0.000000000000000000 ) ) ;
#317 = VERTEX_POINT ( 'NONE', #207 ) ;
#318 = SHAPE_DEFINITION_REPRESENTATION ( #332, #178 ) ;
#319 = AXIS2_PLACEMENT_3D ( 'NONE', #234, #241, #10 ) ;
#320 = ORIENTED_EDGE ( 'NONE', *, *, #106, .F. ) ;
#321 = CARTESIAN_POINT ( 'NONE',  ( -0.1085418506076496065, 0.1880000000000000282, 0.000000000000000000 ) ) ;
#322 = PLANE ( 'NONE',  #71 ) ;
#323 = EDGE_LOOP ( 'NONE', ( #265, #291, #125, #131 ) ) ;
#324 = AXIS2_PLACEMENT_3D ( 'NONE', #25, #280, #117 ) ;
#325 = ADVANCED_FACE ( 'NONE', ( #185 ), #130, .T. ) ;
#326 = SURFACE_STYLE_FILL_AREA ( #62 ) ;
#327 = DIRECTION ( 'NONE',  ( 0.000000000000000000, -0.000000000000000000, 1.000000000000000000 ) ) ;
#328 = DIRECTION ( 'NONE',  ( -0.000000000000000000, -0.000000000000000000, -1.000000000000000000 ) ) ;
#329 = CLOSED_SHELL ( 'NONE', ( #59, #18, #243, #128, #257, #325, #205, #200, #7, #116 ) ) ;
#330 = CARTESIAN_POINT ( 'NONE',  ( -0.1085418506076496065, -0.1879999999999999727, 0.1000000000000000056 ) ) ;
#331 = CARTESIAN_POINT ( 'NONE',  ( 0.1085418506076495232, 0.1880000000000000282, 0.1000000000000000056 ) ) ;
#332 = PRODUCT_DEFINITION_SHAPE ( 'NONE', 'NONE',  #273 ) ;
#333 = CARTESIAN_POINT ( 'NONE',  ( 0.1085418506076496203, -0.1879999999999999727, 0.1000000000000000056 ) ) ;
ENDSEC;
END-ISO-10303-21;
